Nobody Drinks Alone

(/) Slide Up  (\) Slide Down  (h) Hammer On  (p) Pull Off  (b) Bend (r) Release (v) Vibrato
E|----------------------------|--
B|--11b14--9b11--7/9b11r9-----|--
G|-------------------------8--|--
D|----------------------------|--
A|----------------------------|--
E|----------------------------|--



E|-----------|--
B|-----------|--
G|-------6v--|--
D|--6/8------|--
A|-----------|--
E|-----------|--



E|----------|--
B|----------|--
G|--13b15v--|--
D|----------|--
A|----------|--
E|----------|--



E|----------------------|--
B|----------------------|--
G|----------------------|--
D|--11b13r11b13r11b13v--|--
A|----------------------|--
E|----------------------|--



E|-------------------------|--
B|-------------------------|--
G|-------------------------|--
D|--11b13r11b13r11b13r11v--|--
A|-------------------------|--
E|-------------------------|--



E|-----------------------------------------------------------|--
B|-----------------------------------------11---------11-----|--
G|--13p11--11--11--11--11--11--11--11--11--13p11--11--13b15--|--
D|-----------------------------------------------------------|--
A|-----------------------------------------------------------|--
E|-----------------------------------------------------------|--



E|--------------|--
B|--------------|--
G|-------6------|--
D|--8/9-----6v--|--
A|--------------|--
E|--------------|--



E|-----------------------------------------------------------------|--
B|-----------------------14---------11-----------------------------|--
G|--13b15--13b15--13b15------15r13--13b15r13--11-------13/15-------|--
D|------------------------------------------------13v---------11v--|--
A|-----------------------------------------------------------------|--
E|-----------------------------------------------------------------|--



E|--------------------------------------------------------------------------------|--
B|-----------------14--14---------------------14--14v--14--11--14b16--14--11--14--|--
G|--11--13/15--15----------11--11--13/15--15--------------------------------------|--
D|--------------------------------------------------------------------------------|--
A|--------------------------------------------------------------------------------|--
E|--------------------------------------------------------------------------------|--



E|-----------------------------------|--
B|---------16--19--21b21r21--19--21--|--
G|--15/18----------------------------|--
D|-----------------------------------|--
A|-----------------------------------|--
E|-----------------------------------|--
http://www.guitartabcreator.com
Guitar Tab Creator is intended to store guitar tab created through the tool. It currently does not support in-line text editing. Any text you place in here will be lost. If you need to comment on your tab, please use the "Tab Notes" section located below.