Do You Want to Build a Snowman Complete Version

(/) Slide Up  (\) Slide Down  (h) Hammer On  (p) Pull Off  (b) Bend (r) Release (v) Vibrato

Stave 1:

E|-----------------0----------------------0-------------------0--1--0--------1--0-----------
B|--1--1--1--1--1-----3--5----1--1-----1-----3----1--1-----1-----------1-----------1--1--1--
G|-----------0----------------------0-------------------0--------------0--0-----------------
D|---------------------------------------------------------------0-----------0-----0--------
A|--------3-----------2--3-------3-----------2-------0--------------------------------------
E|------------------------------------------------------------------------------------------

Stave 2:

E|--------0--
B|-----1-----
G|--0--------
D|-----------
A|-----------
E|-----------

http://www.guitartabcreator.com
Guitar Tab Creator is intended to store guitar tab created through the tool. It currently does not support in-line text editing. Any text you place in here will be lost. If you need to comment on your tab, please use the "Tab Notes" section located below.