Valjean - Get Loose

(/) Slide Up  (\) Slide Down  (h) Hammer On  (p) Pull Off  (b) Bend (r) Release (v) Vibrato


E|---------------------
B|---------------------
G|---------------------
D|---------------------
A|---------------------
E|--3--3--3--4--5--12--



E|--------------------------------------------------------------
B|--------------------------------------------------------------
G|--------------------------------------------------------------
D|--------------------------------------------------------------
A|--8--5--5--5--5-----------------8--5--5--5--5-----------------
E|-----------------3--0--0--0--0-----------------3--4--5--5--5--



E|-----------------------------------------------------------
B|-----------------------------------------------------------
G|-----------------------------------------------------------
D|-----------------------------------------------------------
A|--8--5--5--5--5--------------8--5--5--5--5-----------------
E|-----------------3--0--0--0-----------------3--4--5--5--5--



E|--------------------------------------------------------------
B|--------------------------------------------------------------
G|--------------------------------------------------------------
D|--------------------------------------------------------------
A|--8--5--5--5--5-----------------8--5--5--5--5-----------------
E|-----------------3--0--0--0--0-----------------3--4--5--5--5--



E|-----------------------------------------------------------------------
B|-----------------------------------------------------------------------
G|-----------------------------------------------------------------------
D|-----------------------------------------------------------------------
A|--8--5--5--5--5-----------------8--5--5--5--5--------------------------
E|-----------------3--0--0--0--0-----------------3--4--5--3--4--3--4-----



E|-----------------------------------------------------------
B|-----------------------------------------------------------
G|-----------------------------------------------------------
D|-----------------------------------------------------------
A|-----3-----------------3-----------------3-----------------
E|--0-----6--5--5--3--0-----6--5--5--3--0-----6--5--5--3--0--



E|-------------------------------------------------------------------
B|-------------------------------------------------------------------
G|-------------------------------------------------------------------
D|--19--------------------------------------------------------19-----
A|------8--5--5--5--5-----------------8--5--5--5--5------------------
E|---------------------3--0--0--0--0-----------------3--4--5---------



E|--------------------------------------------------------------
B|--------------------------------------------------------------
G|--------------------------------------------------------------
D|--------------------------------------------------------------
A|--8--5--5--5--5-----------------8--5--5--5--5-----------------
E|-----------------3--0--0--0--0-----------------3--4--5--5--5--



E|--------------------------------------------------------------
B|--------------------------------------------------------------
G|--------------------------------------------------------------
D|--------------------------------------------------------------
A|--8--5--5--5--5-----------------8--5--5--5--5-----------------
E|-----------------3--0--0--0--0-----------------3--4--5--5--5--



E|-----------------------------------------------------------------------
B|-----------------------------------------------------------------------
G|-----------------------------------------------------------------------
D|-----------------------------------------------------------------------
A|--8--5--5--5--5-----------------8--5--5--5--5--------------------------
E|-----------------3--0--0--0--0-----------------3--4--5--3--4--3--4--5--



E|---------------------------------------------------------------
B|---------------------------------------------------------------
G|---------------------------------------------------------------
D|----------3--------------3----------------3--5/6\5p0--3--------
A|-----3h5-----5--3--4--5--------------3h5-----------------5--5--
E|--0-------------------------0--0--0----------------------------



E|------------------------------------------------------------------
B|------------------------------------------------------------------
G|------------------------------------------------------------------
D|----------3--------------3----------------3-----5/6\5p0--3--------
A|-----3h5-----5--3--4--5--------------3h5-----5--------------5--5--
E|--0-------------------------0--0--0-------------------------------



E|----------------------------------------------------------------
B|----------------------------------------------------------------
G|----------------------------------------------------------------
D|--------3--------------3----------------3-----5/6\5p0--3--------
A|-----------5--3--4--5--------------3h5-----5--------------5--5--
E|--0--0--------------------0--0--0-------------------------------



E|-------------------------------------------------------------------
B|-------------------------------------------------------------------
G|-------------------------------------------------------------------
D|--------3--------------3----------------3-----5/6\5p0--3-----------
A|-----------5--3--4--5--------------3h5-----5--------------5--5--5--
E|--0--0--------------------0--0--0----------------------------------



E|----------------------------------
B|----------------------------------
G|----------------------------------
D|----------------------------------
A|-----3-----------------3----------
E|--0-----6--5--5--3--0-----6--5b5--



E|--------------------------------------------------------------------------------------
B|--------------------------------------------------------------------------------------
G|--------------------------------------------------------------------------------------
D|--------------------------------------------------------------------------------------
A|--------------------------------------------------3--3--3--3--3--3--3--3--------------
E|--0--0--0--0--0--0--0--0--0--0--0--0--0--0--0--0--------------------------6--5--5--3--



E|-----------------------------------------------------------------------------
B|-----------------------------------------------------------------------------
G|-----------------------------------------------------------------------------
D|-----------------------------------------------------------------------------
A|--------------------------------------------------3--3--3--3--3--3--3--3-----
E|--0--0--0--0--0--0--0--0--0--0--0--0--0--0--0--0-----------------------------



E|---------------------------------------------------------------------------
B|---------------------------------------------------------------------------
G|---------------------------------------------------------------------------
D|---------------------------------------------------------------------------
A|---------------------------------------------------------------------------
E|--5p0--5p0--1--6--0--3h5--0--5--5--5--5p0--5p0--0--6--6--6--6--6--3--5--6--



E|---------------------------------------------------------------------------------
B|---------------------------------------------------------------------------------
G|---------------------------------------------------------------------------------
D|---------------------------------------------------------------------------------
A|---------------------------------------------------------------------------------
E|--5p0--5p0--1--6--0--3h5--0--5--5--5--5p0--0--5p0--1--1--6--6--6--6--6--3--5--6--
http://www.guitartabcreator.com
Guitar Tab Creator is intended to store guitar tab created through the tool. It currently does not support in-line text editing. Any text you place in here will be lost. If you need to comment on your tab, please use the "Tab Notes" section located below.