Mono - Legend

(/) Slide Up  (\) Slide Down  (h) Hammer On  (p) Pull Off  (b) Bend (r) Release (v) Vibrato

E|-------5-----3-----------------------1--1--3-------5-----3--8--------1--3--3/5--6--6--5--
B|----------6--5--6--5-----------5----------------------6--5--------5----------------------
G|-------------------------2--5------------------------------------------------------------
D|-------------5-------------------------------------------5-------------------------------
A|--3/5-----------------3-----------0-----------3/5--------------3-----------0-------------
E|-----------------------------------------------------------------------------------------



E|-------5-----3-----------------------1--1--3-------5-----3--8--------1--3--3/5--6--6--5--
B|----------6--5--6--5-----------5----------------------6--5--------5----------------------
G|-------------------------2--5------------------------------------------------------------
D|-------------5-------------------------------------------5-------------------------------
A|--3/5-----------------3-----------0-----------3/5--------------3-----------0-------------
E|-----------------------------------------------------------------------------------------



E|--13--10--12--10--8------------------10--10--12--|--13--10--12--15--12--15--15/17--18--18--17--
B|---------------------10------10--13--------------|---------------------------------------------
G|-------------------------10----------------------|---------------------------------------------
D|-------------------------------------------------|---------------------------------------------
A|-------------------------------------------------|---------------------------------------------
E|-------------------------------------------------|---------------------------------------------
http://www.guitartabcreator.com
Guitar Tab Creator is intended to store guitar tab created through the tool. It currently does not support in-line text editing. Any text you place in here will be lost. If you need to comment on your tab, please use the "Tab Notes" section located below.