A Grim Struggle

(/) Slide Up  (\) Slide Down  (h) Hammer On  (p) Pull Off  (b) Bend (r) Release (v) Vibrato


E|-------------------------------
B|-------------------------------
G|-------------------------------
D|-------9--7-5-7-------9--7-5---
A|-3-5-7-10-8-7-8-3-5-7-10-8-7-0-
E|-5-7-8----------5-7-8--------1-



E|-----------------
B|-----------------
G|-----------------
D|-----------------
A|-3-0-3-0-3-0-3-0-
E|-5-3-0-1-5-3-0-1-



E|--------------------------------------------------------
B|--------------------------------------------------------
G|--2-----------4-----------------------------------------
D|--2-----------5-----------3-----------0--1--------------
A|--0--0--0--0--5--5--5--5--0-----------------3--2-----2--
E|--------------------------1--1--1--1--------------4-----



E|--------------------------------------------------------------
B|--------------------------------------------------------------
G|--2-----------5-----------------------------------------------
D|--2-----------3-----------------------------4--5--------------
A|--0--0--0--0--3--3--3--3--5--6--------------2--3--------------
E|--------------------------3--4--4--4--4--4--------0--0--0--0--



E|--------------------------------------------
B|--------------------------------------------
G|--2--------4-----------2--------5-----------
D|--2-----5-----------3--2-----3-----------5--
A|--0--5-----------0-----0--3-----------0-----
E|--------------1--------------------3--------
http://www.guitartabcreator.com
Guitar Tab Creator is intended to store guitar tab created through the tool. It currently does not support in-line text editing. Any text you place in here will be lost. If you need to comment on your tab, please use the "Tab Notes" section located below.