애상

(/) Slide Up  (\) Slide Down  (h) Hammer On  (p) Pull Off  (b) Bend (r) Release (v) Vibrato


E|------------------------------------------------------------------------------
B|--------5-----7-----5-----------4-----5-----7--------------4h5p4--------------
G|-----4-----4-----4-----4-----4-----4-----4-----4--------6---------6-----------
D|-----------------------------------------------------6---------------6--------
A|--------------------------6-----------------------4---------------------4-----
E|--0---------------------------------------------------------------------------



E|-----------------------
B|-----------------------
G|-----------------------
D|--------6-----6--7--9--
A|-----6-----------------
E|--4--------4-----------
http://www.guitartabcreator.com
Guitar Tab Creator is intended to store guitar tab created through the tool. It currently does not support in-line text editing. Any text you place in here will be lost. If you need to comment on your tab, please use the "Tab Notes" section located below.