compo "riffs" (4th) arrange na to!! melody ng lyrics nalang! game na! :)

(/) Slide Up  (\) Slide Down  (h) Hammer On  (p) Pull Off  (b) Bend (r) Release (v) Vibrato


(^) high pinch (*) mute (~) hold


D|------------------------------| verse
B|------------------------------|
G|------------------------------|
D|---4-5-7-5-4------2-4-2-------|
A|--5---------7-5--1------7-9-7-|
D|-----------------------5------|



D|----------------------------------| Bagsakan
B|----------------------------------|
G|----------------------------------|
D|--0---0-0-0-1-3-1-0-0--0--0-0-0-0-|
A|--0---0-0-0-1-3-1-0-0--0--0-0-0-0-|
D|--0---0-0-0-1-3-1-0-0--0--0-0-0-0-|
~ * * * * ~


D|---------------------------------------------------------------| cHorus
B|---------------------------------------------------------------|
G|----------------------------------------------------------12---|
D|--0--0-0-0-0-0-0-0-0-0-0-0-0-0-0-0-0-0---------------14-15---0-|
A|--0--0-0-0-0-0-0-0-0-0-0-0-0-0-0-0-0-0--7-8-10-8-7/13--------0-|
D|--0--0-0-0-0-0-0-0-0-0-0-0-0-0-0-0-0-0-8---------------------0-|
* * * * * * * * * * * *


D|-----------------------|
B|-----------------------| Do 3x
G|-----------------------|
D|--0-0-0----------------|
A|--0-0-0----------------|
D|--0-0-0--0-0-0-0-0-0-0-|
* * *


D|-----------------------------|
B|-----------------------------| Do 4th count
G|-----------------------------|
D|-----------------------------|
A|-----------------------------|
D|--0--1-2-0-2-3-5-3-2-1-2-1-0-|
* * * * * * * * * * * * *


D|-------------------------------------------------| Do 4x Breakdown
B|-------------------------------------------------|
G|-------------------------------------------------|
D|------------------8-7------------------------7-5-|
A|--0-1----0-0--0-0-6-5-1-3-2-1-3-2-1-3-0--0-0-5-3-|
D|--0-1-3--0-0--0-0-----1-3-2-1-3-2-1-3-0--0-0-----|
^

D|---------------------------------------------------| Do 4x Breakdown
B|---------------------------------------------------|
G|---------------------------------------------------|
D|------------------8-7------------------------5/7\5-|
A|--0-1----0-0--0-0-6-5-1-3-2-1-3-2-1-3-0--0-0-3/5\3-|
D|--0-1-3--0-0--0-0-----1-3-2-1-3-2-1-3-0--0-0-------|


D|---------------------|
B|---------------------| Do 3x (2nd riff na bagsakan)
G|---------------------|
D|--0-0----------------|
A|--0-0----------------|
D|--0-0--0-0-0-0-0-0-0-|
* *


D|------------------| Do 4th count
B|------------------|
G|------------------|
D|------------------|
A|------------------|
D|--1-2-3-1-4-3-1-2-|


D|-------------------------------| Do 3x
B|-------------------------------|
G|-------------------------------|
D|-------------------------------|
A|--0---------5/7---3/5---2/3----|
D|--0--0-0-0-0---0-0---0-0---5/7-|


D|--------------------------------| Do 4th count 1st rolling ending
B|--------------------------------|
G|--------------------------------|
D|--------------------------------|
A|-------------5-6-5-8-6-5-6-5----|
D|--0-0-0-0-5-7-----------7---9-7-|


D|----------------------------------| Do 4th count 2nd rolling ending
B|----------------------------------|
G|----------------------------------|
D|------------------4h5p4-----------|
A|-------------0-5-0------5h7p5-7-5-|
D|--0-0-0-0-5-7----------7-----7----|

D|----------| Ending riff then chorus,2nd riff na bagsakan then breakdown!! yun na yun!!
B|----------|
G|----------| Tara JAM NA!!! ^_^
D|----------|
A|--0-3-5-6-|
D|--0-1-3-4-|




Guitar Tab Creator is intended to store guitar tab created through the tool. It currently does not support in-line text editing. Any text you place in here will be lost. If you need to comment on your tab, please use the "Tab Notes" section located below.