Where are the Notes E F G

(/) Slide Up  (\) Slide Down  (h) Hammer On  (p) Pull Off  (b) Bend (r) Release (v) Vibrato


E|--------0----------12---------------------------
B|-------------------------------------5--17------
G|------------------------------9--21-------------
D|-----2---------14-------------------------------
A|-----------------------7--19--------------------
E|--0--------12-----------------------------------



E|--------1----------13-----------------------
B|----------------------------------18--------
G|------------------------------10------------
D|-----3---------15---------------------------
A|-----------------------8--20----------------
E|--1--------13-------------------------------



E|--------3----------15------------------------
B|----------------------------------8--20------
G|---------------------------0--12-------------
D|-----5---------17----------------------------
A|-----------------------10--------------------
E|--3--------15--------------------------------
http://www.guitartabcreator.com
Guitar Tab Creator is intended to store guitar tab created through the tool. It currently does not support in-line text editing. Any text you place in here will be lost. If you need to comment on your tab, please use the "Tab Notes" section located below.