Where are the Notes A B C D

(/) Slide Up  (\) Slide Down  (h) Hammer On  (p) Pull Off  (b) Bend (r) Release (v) Vibrato


E|--------5----------17--------------------------
B|-------------------------------------10--------
G|------------------------------2--14------------
D|-----7---------19------------------------------
A|-----------------------0--12-------------------
E|--5--------17----------------------------------



E|--------7----------19---------------------------
B|-------------------------------------0--12------
G|------------------------------4--16-------------
D|-----9---------21-------------------------------
A|-----------------------2--14--------------------
E|--7--------19-----------------------------------



E|---------8------20----------------------------
B|----------------------------------1--13-------
G|---------------------------5--17--------------
D|-----10---------------------------------------
A|--------------------3--15---------------------
E|--8---------20--------------------------------



E|----------10------------------------------
B|-------------------------------3--15------
G|------------------------7--19-------------
D|------12------0---------------------------
A|-----------------5--17--------------------
E|--10--------------------------------------
http://www.guitartabcreator.com
Guitar Tab Creator is intended to store guitar tab created through the tool. It currently does not support in-line text editing. Any text you place in here will be lost. If you need to comment on your tab, please use the "Tab Notes" section located below.