F# (at fret 2) Pentatonic Lesson Help

(/) Slide Up  (\) Slide Down  (h) Hammer On  (p) Pull Off  (b) Bend (r) Release (v) Vibrato
E|----------------------------------5--7--7--5--------------------------12--14--17--
B|----------------------------5--7--------------7--5--------10--12--14--------------
G|--------------------2--4/6--------------------------6/11--------------------------
D|--------------2--4----------------------------------------------------------------
A|--------2--4----------------------------------------------------------------------
E|--2--5----------------------------------------------------------------------------



E|--17--14----------------------------------------------------------------------------
B|----------17--14----------------------------------------------------------------14--
G|------------------16--14------------------------------------------------14--16------
D|--------------------------16--14--------------------------------14--16--------------
A|----------------------------------16--14------------------14-16---------------------
E|------------------------------------------17--14--14--17----------------------------



E|------14--12---9----------------------5--7--7--5-----------------------------------
B|--17--------------12--10--------5--7--------------7--5-----------------------------
G|--------------------------11\6--------------------------6--4--2--------------------
D|-----------------------------------------------------------------4--2--------------
A|-----------------------------------------------------------------------4--2--------
E|-----------------------------------------------------------------------------5--2--
http://www.guitartabcreator.com
Guitar Tab Creator is intended to store guitar tab created through the tool. It currently does not support in-line text editing. Any text you place in here will be lost. If you need to comment on your tab, please use the "Tab Notes" section located below.