E minor pentatonic

(/) Slide Up  (\) Slide Down  (h) Hammer On  (p) Pull Off  (b) Bend (r) Release (v) Vibrato


E|--------------------------------0--3--3--0--------------------3--5--7--10---------
B|--------------------------0--3--------------3--0--------3--5---------------8--10--
G|--------------------0--2--------------------------2--4----------------------------
D|--------------0--2----------------------------------------------------------------
A|--------0--2----------------------------------------------------------------------
E|--0--3----------------------------------------------------------------------------



E|------10--12--15------------------------------------------------------------------
B|--12--------------12--15----------------------------------------------------------
G|--------------------------12--14--------------------------------------------------
D|----------------------------------12--14----------------------------------17--19--
A|------------------------------------------12--14------------------17--19----------
E|--------------------------------------------------12--15--17--19------------------



E|------------------17--19--17--15--12----------------------------------------------
B|----------17--20----------------------15--12--------------------------------------
G|--16--19--------------------------------------14--12------------------------------
D|------------------------------------------------------14--12----------------------
A|--------------------------------------------------------------14--12--------------
E|----------------------------------------------------------------------15--12--10--



E|--------------------------------------------------
B|--------------------------------------------------
G|--------------------7--4--2--0--------------------
D|--------------7--5--------------2--0--------------
A|--------7--5--------------------------2--0--------
E|--7--5--------------------------------------3--0--
http://www.guitartabcreator.com
Guitar Tab Creator is intended to store guitar tab created through the tool. It currently does not support in-line text editing. Any text you place in here will be lost. If you need to comment on your tab, please use the "Tab Notes" section located below.