Am Pentatonic Lesson Help

(/) Slide Up  (\) Slide Down  (h) Hammer On  (p) Pull Off  (b) Bend (r) Release (v) Vibrato
t: none none none none none none none none none none nonenone none nonenone nonenone none nonenone none none nonenone nonenone nonenone nonenone nonenone nonenone nonenone
E|------------------------------------8--10--10--8---------------------------15--17--20--
B|-----------------------------8--10----------------10--8--------13--15--17--------------
G|--------------------5--7--9------------------------------9/14--------------------------
D|--------------5--7---------------------------------------------------------------------
A|--------5--7---------------------------------------------------------------------------
E|--5--8---------------------------------------------------------------------------------


t: nonenone nonenone nonenone nonenone nonenone nonenone nonenone nonenone nonenone nonenone nonenone nonenone nonenone nonenone nonenone nonenone nonenone nonenone nonenone nonenone
E|--20--17--------------------------------------------------------------------------
B|----------20--17------------------------------------------------------------------
G|------------------19--17--------------------------------------------------17--19--
D|--------------------------19--17----------------------------------17--19----------
A|----------------------------------19--17------------------17--19------------------
E|------------------------------------------20--17--17--20--------------------------



E|----------17\15---------------------------8--10--10--8------------------------------------
B|--17--20----------17--15--13--------8--10----------------10--8-----------------------------
G|------------------------------14\9------------------------------9--7--5--------------------
D|-------------------------------------------------------------------------7--5--------------
A|-------------------------------------------------------------------------------7--5--------
E|-------------------------------------------------------------------------------------8--5--
http://www.guitartabcreator.com
Guitar Tab Creator is intended to store guitar tab created through the tool. It currently does not support in-line text editing. Any text you place in here will be lost. If you need to comment on your tab, please use the "Tab Notes" section located below.