icebergs

(/) Slide Up  (\) Slide Down  (h) Hammer On  (p) Pull Off  (b) Bend (r) Release (v) Vibrato


E|------------------------|------------------------|------------------------0-----
B|------------------------|------------------------|------------------------0-----
G|------------------------|------------------------|------------------------------
D|-----2-----0h2p0--------|-----2-----0h2p0--------|-----2-----0h2p0--------------
A|--0-----3---------3-----|--0-----3---------3--2--|--0-----3---------3-----2-----
E|---------------------3--|------------------------|---------------------3--3-----



E|-----
B|-----
G|-----
D|-----
A|-----
E|-----



E|--0--------
B|--1--------
G|--2--------
D|--2--------
A|--0--------
E|--0--------
http://www.guitartabcreator.com
Guitar Tab Creator is intended to store guitar tab created through the tool. It currently does not support in-line text editing. Any text you place in here will be lost. If you need to comment on your tab, please use the "Tab Notes" section located below.