Every breath you take

(/) Slide Up  (\) Slide Down  (h) Hammer On  (p) Pull Off  (b) Bend (r) Release (v) Vibrato
E|--------------------------|--------------------------
B|--------------------------|--------------------------
G|--------------------------|--------------------------
D|--------------------------|--------------------------
A|--------------4--------4--|--------------4--------4--
E|--5--5--7--5-----5--7-----|--5--5--7--5-----5--7-----



E|--------------------------|--------------------------
B|--------------------------|--------------------------
G|--------------------------|--------------------------
D|--------------------------|--------------------------
A|--------------------------|--------------------------
E|--2--2--4--2--5--2--4--5--|--2--2--4--2--5--2--4--5--



E|-----------------|--------------------|-----------------|-----------------|-----------------
B|-----------------|--------------------|-----------------|-----------------|-----------------
G|--6--7--6--4-----|--6--7--6--4-----6--|--------6--7--7--|--------7--6--4--|--4-----6--------
D|--------------7--|--------------7-----|--7--7-----------|--7--7-----------|-----7-----7--7--
A|-----------------|--------------------|-----------------|-----------------|-----------------
E|-----------------|--------------------|-----------------|-----------------|-----------------



E|--------------------|---------------------
B|--------9--7-----7--|--------11--9-----9--
G|--------------7-----|---------------9-----
D|--------------------|---------------------
A|--5--5--------------|--7--7---------------
E|--------------------|---------------------
http://www.guitartabcreator.com
Guitar Tab Creator is intended to store guitar tab created through the tool. It currently does not support in-line text editing. Any text you place in here will be lost. If you need to comment on your tab, please use the "Tab Notes" section located below.