Titanium

(/) Slide Up  (\) Slide Down  (h) Hammer On  (p) Pull Off  (b) Bend (r) Release (v) Vibrato


E|------------------------------------------------------------------------------------
B|---------------9----------------------------------------------------9---------------
G|--------11--------11-----11--------9-----11-----9------------9---------9------9-----
D|-----9------9---------9---------9-----9------9-----9-----11-----11--------11--------
A|--7---------------------------------------------------------------------------------
E|-----------------------------7------------------------9-----------------------------



E|------------------------------
B|----------------9-------------
G|---------11--------11-----11--
D|------9------9---------9------
A|--12--------------------------
E|------------------------------
Guitar Tab Creator is intended to store guitar tab created through the tool. It currently does not support in-line text editing. Any text you place in here will be lost. If you need to comment on your tab, please use the "Tab Notes" section located below.