Darkness Encompassing

(/) Slide Up  (\) Slide Down  (h) Hammer On  (p) Pull Off  (b) Bend (r) Release (v) Vibrato


E|--------------------------------------------------
B|-----------------0--------------------------------
G|--------0-----0-----0-----------0--------0--------
D|-----2-----2-----------2-----2-----2--------2-----
A|--2-----------------------2-----------2--------2--
E|--------------------------------------------------



E|--------------------------------------------------
B|-----------------0--------------------------------
G|--------0-----0-----0-----------0--------0--------
D|-----2-----2-----------2-----2-----2--------2-----
A|--1-----------------------1-----------1--------1--
E|--------------------------------------------------



E|----------------------------------------------------------------
B|----------------------------------------------------------------
G|----------------------------------------------------------------
D|-----4b5--------------4b5-----4-----3b4--------------3b4-----3--
A|--2-------2--2--2--2-------2-----1-------1--1--1--1-------1-----
E|----------------------------------------------------------------



E|---------------------------------------
B|---------------------------------------
G|---------------------------------------
D|--4----4----4--4--4----4--4--4----4----
A|--2----2----2--2--2----2--2--2----2----
E|---------------------------------------



E|--
B|--
G|--
D|--
A|--
E|--
http://www.guitartabcreator.com
Guitar Tab Creator is intended to store guitar tab created through the tool. It currently does not support in-line text editing. Any text you place in here will be lost. If you need to comment on your tab, please use the "Tab Notes" section located below.