Ngiti - Ronnie Liang

(/) Slide Up  (\) Slide Down  (h) Hammer On  (p) Pull Off  (b) Bend (r) Release (v) Vibrato


E|--------------11------------11---------|--------------------------|---------8--9--11--13--11-----
B|--7/9--11--9------9--11--9------11/13--|--9h11r9------------------|--9--11-----------------------
G|---------------------------------------|----------10--11----------|------------------------------
D|---------------------------------------|------------------11--13--|------------------------------
A|---------------------------------------|--------------------------|------------------------------
E|---------------------------------------|--------------------------|------------------------------



E|--------------------
B|--------------------
G|--------------0--0--
D|--0--0--0--0--------
A|-----------2--------
E|-----------3--------
http://www.guitartabcreator.com
Guitar Tab Creator is intended to store guitar tab created through the tool. It currently does not support in-line text editing. Any text you place in here will be lost. If you need to comment on your tab, please use the "Tab Notes" section located below.