Song 2

(/) Slide Up  (\) Slide Down  (h) Hammer On  (p) Pull Off  (b) Bend (r) Release (v) Vibrato

E|-----------------------------------
B|-----------------------------------
G|-----------------------------------
D|--------4-----5-----7-----5-----4--
A|--0--0-----0-----0-----0-----0-----
E|-----------------------------------



E|---------------
B|---------------
G|---------------
D|--2h4p2--------
A|---------3--2--
E|---------------
http://www.guitartabcreator.com
Guitar Tab Creator is intended to store guitar tab created through the tool. It currently does not support in-line text editing. Any text you place in here will be lost. If you need to comment on your tab, please use the "Tab Notes" section located below.