Song 1

(/) Slide Up  (\) Slide Down  (h) Hammer On  (p) Pull Off  (b) Bend (r) Release (v) Vibrato


E|-----------------------------------------------------------
B|-----------------------------------------------------------
G|-----------------------------------------------------------
D|--------------5--------4-----2--------5--------7--5--4-----
A|--------------------------------------------------------5--
E|--0--0--0--0-----0--0-----0-----0--0-----0--0--------------



E|--------------------------------------------------------------
B|--------------------------------------------------------------
G|--------------------------------------------------------------
D|-----------------6--------4--3--------------8--------6--5-----
A|-----------------6--------4--3--2-----------8--------6--5--2--
E|--0--0--0--0--0--4--0--0--2--1--0--0--0--0--6--0--0--4--3--0--
http://www.guitartabcreator.com
Guitar Tab Creator is intended to store guitar tab created through the tool. It currently does not support in-line text editing. Any text you place in here will be lost. If you need to comment on your tab, please use the "Tab Notes" section located below.