music composision

(/) Slide Up  (\) Slide Down  (h) Hammer On  (p) Pull Off  (b) Bend (r) Release (v) Vibrato
E|--------------------------------------------------------------------------------------------------
B|-----2--------2--------2-----2--------2--------2-----2--------2--------2-----2-----------2--------
G|--------2--------2--------------2--------2--------------2--------2--------------2-----------2-----
D|--4--------4--------4-----------------------------------------------------------------------------
A|--------------------------4--------4--------4-----5--------5--------5-----2--------2--4--------4--
E|--------------------------------------------------------------------------------------------------



E|--------------------------------------------------------------------------------------------------
B|-----2--------2--------2-----2--------2--------2-----2--------2--------2-----2--------2--------2--
G|--------2--------2--------------2--------2--------------2--------2--------------2--------2--------
D|--4--------4--------4-----6--------6--------6-----0--------0--------0-----0--------0--------0-----
A|--------------------------------------------------------------------------------------------------
E|--------------------------------------------------------------------------------------------------



E|--2--2--2--2--2--2--2--2--2--2--2--2--2--2--2--2--2--2--2--2--2--
B|--2--2--2--2--2--2--2--2--2--2--2--2--2--2--2--2--2--2--2--2--2--
G|--2--2--2--2--2--2--2--2--2--2--2--2--2--2--2--2--2--2--2--2--2--
D|--4--4--4--4--4--0--0--0--0--0--0--0--0--0--0--0--0--0--0--0--0--
A|--0--0--0--0--0--4--4--4--4--4--5--5--5--5--5--2--2--2--4--4--4--
E|-----------------------------------------------------------------



E|--2--2--2--2--2--2--2--2--2--2--2--2--2--2--2--2--2--2--2--2--
B|--2--2--2--2--2--2--2--2--2--2--2--2--2--2--2--2--2--2--2--2--
G|--2--2--2--2--2--2--2--2--2--2--2--2--2--2--2--2--2--2--2--2--
D|--4--4--4--4--4--6--6--6--6--0--0--0--0--0--0--0--0--0--0--0--
A|--0--0--0--0--0--0--0--0--0--0--0--0--0--0--2--2--2--4--4--4--
E|--------------------------------------------------------------



E|--2--2--4--2--4--2--2--2--4--2--4--5--2--2--4--2--2--2--4--2--
B|--2--2--2--2--2--2--2--2--2--2--2--2--2--2--2--2--2--2--2--2--
G|--2--2--2--2--2--2--2--2--2--2--2--2--2--2--2--2--2--2--2--2--
D|--4--4--4--4--4--4--2--2--2--2--2--2--0--0--0--0--0--0--0--0--
A|--0--0--0--0--0--0--0--0--0--0--0--0--0--0--0--0--0--0--0--0--
E|--------------------------------------------------------------



E|--2--2--5--5--4--4--4--2--2--4--4--5--5--5--2--2--4--4--5--5--2--2--4--4--5--5--5--
B|--2--2--2--2--2--2--2--2--2--2--2--2--2--2--2--2--2--2--2--2--2--2--2--2--2--2--2--
G|--2--2--2--2--2--2--2--2--2--2--2--2--2--2--2--2--2--2--2--2--2--2--2--2--2--2--2--
D|--4--4--4--4--4--4--4--2--2--2--2--2--2--2--0--0--0--0--0--0--0--0--0--0--0--0--0--
A|--0--0--0--0--0--0--0--0--0--0--0--0--0--0--0--0--0--0--0--0--0--0--0--0--0--0--0--
E|-----------------------------------------------------------------------------------



E|--2--2--2--2--2--2--2--2--2--2--2--2--2--2--2--2--2--2--2--2--
B|--2--2--2--2--2--2--2--2--2--2--2--2--2--2--2--2--2--2--2--2--
G|--2--2--2--2--2--2--2--2--2--2--2--2--2--2--2--2--2--2--2--2--
D|--0--0--0--0--0--0--0--0--0--0--4--4--4--4--4--0--0--0--0--0--
A|--2--2--2--2--2--5--5--5--5--5--0--0--0--0--0--0--0--0--0--0--
E|--------------------------------------------------------------



E|--2--2--4--2--4--2--2--2--4--2--4--5--2--2--4--2--2--2--4--2--
B|--2--2--2--2--2--2--2--2--2--2--2--2--2--2--2--2--2--2--2--2--
G|--2--2--2--2--2--2--2--2--2--2--2--2--2--2--2--2--2--2--2--2--
D|--4--4--4--4--4--4--2--2--2--2--2--2--0--0--0--0--0--0--0--0--
A|--0--0--0--0--0--0--0--0--0--0--0--0--0--0--0--0--0--0--0--0--
E|--------------------------------------------------------------



E|--------------------------------------------------------------------------------------------
B|-----2--------2--------2-----2--------2--------2-----2--------2--------2-----2--------------
G|--------2--------2--------------2--------2--------------2--------2--------------2-----------
D|--4--------4--------4-----------------------------------------------------------------------
A|--------------------------4--------4--------4-----5--------5--------5-----2--------2--2--4--
E|--------------------------------------------------------------------------------------------
http://www.guitartabcreator.com
Guitar Tab Creator is intended to store guitar tab created through the tool. It currently does not support in-line text editing. Any text you place in here will be lost. If you need to comment on your tab, please use the "Tab Notes" section located below.