riffs and melody

(/) Slide Up  (\) Slide Down  (h) Hammer On  (p) Pull Off  (b) Bend (r) Release (v) Vibrato


E|-------------------------------------------------------------------------
B|--------------------------------------------------------------3-----3/5--
G|-----1--2--4--2--1-----------------------1--2--4--2--1--2--4-----4-------
D|--2-----------------0-----------0-----2----------------------------------
A|-----------------------2--0--2-----2-------------------------------------
E|-------------------------------------------------------------------------



E|-----------------------------------------------
B|--9--9--9--9--9--9--9--9--7--9--9--9--7--8--9--
G|--9--9--9--9--9--9--9--9--7--9--9--9--7--8--9--
D|--9--9--9--9--9--9--9--9--7--9--9--9--7--8--9--
A|-----------------------------------------------
E|-----------------------------------------------



E|------
B|------
G|------
D|--9---
A|--17--
E|------



E|------
B|------
G|------
D|--15--
A|------
E|------



E|-----
B|-----
G|-----
D|--9--
A|-----
E|-----
http://www.guitartabcreator.com
Guitar Tab Creator is intended to store guitar tab created through the tool. It currently does not support in-line text editing. Any text you place in here will be lost. If you need to comment on your tab, please use the "Tab Notes" section located below.