Random

(/) Slide Up  (\) Slide Down  (h) Hammer On  (p) Pull Off  (b) Bend (r) Release (v) Vibrato


E|--7--7p5h7p5-----5--7p5-------------------
B|--------------7----------7--5--3----------
G|----------------------------------2--2h4--
D|------------------------------------------
A|------------------------------------------
E|------------------------------------------



E|--------------------------------------------------------------------------
B|--------------------------------------------------------------------------
G|--------9--------9--------9--------9--------7--------7--------7--------7--
D|-----7--------7--------7--------7--------5--------5--------5--------5-----
A|--9--------9--------9--------9--------7--------7--------7--------7--------
E|--------------------------------------------------------------------------



E|--------------------------------------------------------------------------------------------------------------
B|-----------------1-----------------1-----------------1-----------------1-----------------1-----------------1--
G|--------2-----------------2-----------------2-----------------2-----------------0-----------------0-----------
D|-----2--------2--------2--------2--------3--------3--------3--------3--------2--------2--------2--------2-----
A|--0--------0--------0--------0--------0--------0--------0--------0--------3--------3--------3--------3--------
E|--------------------------------------------------------------------------------------------------------------



E|--9--9--9--7--9--7--9--7--8--9--9--9--9--7--8--9--
B|--9--9--9--7--9--7--9--7--8--9--9--9--9--7--8--9--
G|--9--9--9--7--9--7--9--7--8--9--9--9--9--7--8--9--
D|--------------------------------------------------
A|--------------------------------------------------
E|--------------------------------------------------



E|--
B|--
G|--
D|--
A|--
E|--
http://www.guitartabcreator.com
Guitar Tab Creator is intended to store guitar tab created through the tool. It currently does not support in-line text editing. Any text you place in here will be lost. If you need to comment on your tab, please use the "Tab Notes" section located below.