new

(/) Slide Up  (\) Slide Down  (h) Hammer On  (p) Pull Off  (b) Bend (r) Release (v) Vibrato

Capo 1

chords:
E|--0--0--0--
B|--3--5--0--
G|--0--0--4--
D|--4--4--5--
A|--5--5--5--
E|-----------


intro/verse:
E|--------------------------------------------------------------------------------------------------
B|--------------3-----------------------5-----------------------0-----------------------0-----------
G|-----0-----------0-----0-----0-----------0-----0-----4-----------4-----4-----4-----------4-----4--
D|--------4-----------4-----------4-----------4-----------4-----------4-----------4-----------4----4
A|--5--------5--------------5--------5--------------5--------5--------------5--------5--------------
E|--------------------------------------------------------------------------------------------------





E|----------------------------------------------------------------------------------------------------
B|--------------0-----------------------3-----------------------0-----------------------0-------------
G|-----0-----------0-----0-----0-----------0-----0-----2-----------2-----2-----2-----------2-----2----
D|--------2-----------2-----------2-----------2-----------2-----------2-----------2-----------2-----2-
A|--3--------3--------------3--------3--------------3--------3--------------3--------3----------------
E|----------------------------------------------------------------------------------------------------


chorus:
E|--------------------------------------------------------------------------------------------------
B|--------------1-----------------------1-----------------------0-----------------------0-----------
G|-----0-----------0-----0-----0-----------0-----0-----0-----------0-----0-----0-----------0-----0--
D|--------2-----------2-----------2-----------2-----------2-----------2-----------2-----------2-----
A|--3--------3--------------3--------3--------------2--------2--------------2--------2--------------
E|--------------------------------------------------------------------------------------------------



E|----------------------------------------------------------------------------------------------------
B|--------------1-----------------------1-------------------------0-----------------------0-----------
G|-----2-----------2-----2-----2-----------2-----2-------0-----------0-----0-----0-----------0-----0--
D|--------0-----------0-----------0-----------0-------------2-----------2-----------2-----------2-----
A|--2--------2--------------2--------2----------------3-----------------------3-----------------------
E|----------------------------------------------------3--------3--------------3--------3--------------
http://www.guitartabcreator.com
Guitar Tab Creator is intended to store guitar tab created through the tool. It currently does not support in-line text editing. Any text you place in here will be lost. If you need to comment on your tab, please use the "Tab Notes" section located below.