Heavy Mind

(/) Slide Up  (\) Slide Down  (h) Hammer On  (p) Pull Off  (b) Bend (r) Release (v) Vibrato

Heavy Mind

Capo:4

intro
E|-----3-----------1--3--------------
B|--1--3--3--1--0--1--3--------------
G|--2--4--0--2--2--2--4--------------
D|--3--5--2--2--2--3--5--2-----2-----
A|-----5-----------3--5--3--2--3--2--
E|-----3-----------1--3-----3-----3--


verse1
E|--0--------0--------
B|--1--------0-----0--
G|--0--------0--2--2--
D|--2--5--4--0--0--0--
A|--3--5--5--2--0--0--
E|-----------3--2--4--

chorus
E|--0--0--0--0--
B|--3--3--0--3--
G|--0--0--0--0--
D|--2--0--2--0--
A|--3--2--2--2--
E|-----3--0--3--


E|------------------------
B|------------------------
G|------------------------
D|--2--4---------2--4-----
A|--3--5--2------3--5--2--
E|--------3------------3--

verse2
E|--0--------0--------
B|--1--------0-----0--
G|--0--------0--2--2--
D|--2--5--4--0--0--0--
A|--3--5--5--2--0--0--
E|-----------3--2--4--

chorus
E|--0--0--0--0--
B|--3--3--0--3--
G|--0--0--0--0--
D|--2--0--2--0--
A|--3--2--2--2--
E|-----3--0--3--


bridge
E|---------------------------------------------------2--
B|-----3---------------------------3-----------------3--
G|-----4--2------------------------4--2--------------2--
D|--5--------4--2--2--7--4------5--------4--2--5--7-----
A|--7-----2--5--2--3--5--5------7-----2--5--2--5--5-----
E|--7---------------------------7-----------------------


E|--0--0--0--0--
B|--3--3--0--3--
G|--0--0--0--0--
D|--2--0--2--0--
A|--3--2--2--2--
E|-----3--0--3--

outro
E|------------------------
B|------------------------
G|------------------------
D|--2--4---------2--4-----
A|--3--5--2------3--5--2--
E|--------3------------3--
http://www.guitartabcreator.com
Guitar Tab Creator is intended to store guitar tab created through the tool. It currently does not support in-line text editing. Any text you place in here will be lost. If you need to comment on your tab, please use the "Tab Notes" section located below.