Freeway

(/) Slide Up  (\) Slide Down  (h) Hammer On  (p) Pull Off  (b) Bend (r) Release (v) Vibrato

Capo: 4
E|-----------------------
B|--------3----/12----1--
G|--------------------2--
D|--2-----2--------------
A|--3--2-----------------
E|-----3-----------------


Capo: 4
E|--------------------------------------------
B|--------------------------------------------
G|--------0--2--4--2--------------------------
D|--2--4--------------4----4h5--4h5-----------
A|-----------------------------------2--5--5--
E|--------------------------------------------
http://www.guitartabcreator.com
Guitar Tab Creator is intended to store guitar tab created through the tool. It currently does not support in-line text editing. Any text you place in here will be lost. If you need to comment on your tab, please use the "Tab Notes" section located below.