Brilliance: new riff before 3rd verse

(/) Slide Up  (\) Slide Down  (h) Hammer On  (p) Pull Off  (b) Bend (r) Release (v) Vibrato


E|-----------------
B|--0--0--3--0--3--
G|--0--2--0--0--0--
D|--2--2--0--0--0--
A|-----0--2--2--2--
E|--0--------------



E|-----------------
B|--0--0--3--5--0--
G|--0--2--0--0--0--
D|--2--2--4--4--4--
A|-----0--5--5--5--
E|--0--------------
http://www.guitartabcreator.com
Guitar Tab Creator is intended to store guitar tab created through the tool. It currently does not support in-line text editing. Any text you place in here will be lost. If you need to comment on your tab, please use the "Tab Notes" section located below.