Fly Me to the Moon

(/) Slide Up  (\) Slide Down  (h) Hammer On  (p) Pull Off  (b) Bend (r) Release (v) Vibrato
E|--------------------------------------------------------------------------------------------------------------------------
B|--------------------------------------------------------------------------------------------------------------------------
G|--5--4-----------------5--4-----------------------------------------------------------------5--4--------------------------
D|--------7--5-----5--7--------7--5--------7--5-----------------7--6--------------------7--7--------5-----------7--5--------
A|--------------8--------------------8--7--------8--7--5--7--8--------8--7--5--------5--------------------8--8--------8--7--
E|-----------------------------------------------------------------------------8--9--------------------8--------------------



E|--------------------------5--7--8--
B|-----------------5--6--8-----------
G|-----------5--7--------------------
D|-----5--7--------------------------
A|--7--------------------------------
E|-----------------------------------



E|--8--7--5--------------5--8--7--5-----------5--------------------5--4--------------
B|-----------8--6--6--8--------------8--6--5-----8--6--5-----5--6--------6--5--------
G|--------------------------------------------------------7--------------------7--5--
D|-----------------------------------------------------------------------------------
A|-----------------------------------------------------------------------------------
E|-----------------------------------------------------------------------------------



E|--------5--5--8--7-----4--5-----------------
B|--------------------8-----------------------
G|--6--7-----------------------5--5--5--7--5--
D|--------------------------------------------
A|--------------------------------------------
E|--------------------------------------------



E|--12--8--10--5--5--7/10--8--
B|----------------------------
G|----------------------------
D|----------------------------
A|----------------------------
E|----------------------------
http://www.guitartabcreator.com
Guitar Tab Creator is intended to store guitar tab created through the tool. It currently does not support in-line text editing. Any text you place in here will be lost. If you need to comment on your tab, please use the "Tab Notes" section located below.