Dukes Theme Song

(/) Slide Up  (\) Slide Down  (h) Hammer On  (p) Pull Off  (b) Bend (r) Release (v) Vibrato
E|-----------------------------------------
B|-----------------------------------------
G|-----------------------------------------
D|--------9-----------9-----------9--------
A|-----9-----9-----9-----9-----9-----9-----
E|--7-----------7-----------7-----------7--



E|-----------------------------------------------------------------------------------------------------
B|--10p9h10----------------10p9h10---------------------------------------------------------------------
G|-----------9b10-------------------8------------------------------------------------------------------
D|-----------------10------------------10v------12b13----12b13----12b13r12--10-------------------------
A|------------------------------------------------------------------------------12--10--12b13--10--10--
E|-----------------------------------------------------------------------------------------------------



E|--------------------------
B|--------------------------
G|--------------------------
D|--------------------------
A|--10--12--10--12/15--15v--
E|--------------------------



E|------------------------------------------------------
B|--------13--13--13--------13------15b17r15--15--15----
G|--9/14----------------14------14----------------------
D|------------------------------------------------------
A|------------------------------------------------------
E|------------------------------------------------------



E|--------------------------------------------------------------------------|------
B|------13--15b16--15b16--15b16r15-----------------------------13--13v------|------
G|--14------------------------------14--12--12--14--12--12h14---------------|------
D|--------------------------------------------------------------------------|--10--
A|--------------------------------------------------------------------------|--10--
E|--------------------------------------------------------------------------|--8---
http://www.guitartabcreator.com
Guitar Tab Creator is intended to store guitar tab created through the tool. It currently does not support in-line text editing. Any text you place in here will be lost. If you need to comment on your tab, please use the "Tab Notes" section located below.