Seek and Destroy

(/) Slide Up  (\) Slide Down  (h) Hammer On  (p) Pull Off  (b) Bend (r) Release (v) Vibrato

Stave 1:

E|------------------------------------------------|--------------------------
B|------------------------------------------------|--------------------------
G|--------7h8p7-----------------------------5-----|--9--7-----7--------------
D|------------------7h8p7-------------5--------7--|--------9-----9--8--7-----
A|--0--0---------0---------0----8--7-----7--------|--------------------------
E|------------------------------------------------|--------------------------

Stave 2:

E|--------------------------------------------------|--------------------------
B|--------------------------------------------------|--------------------------
G|--------------------------------------------------|--------------------------
D|--------------3--5--3--5--------------------------|--------------------5-----
A|--------------3--5--3--5--------------7--5--------|-----------------------7--
E|--0--0--0--0--3--5--3--5--0--0--0--0--------7--6--|--0--0--0--0--7--6--------

Stave 3:

E|--------------------|--------------------------------|-----------------------------
B|--------------------|--------------------------------|-----------------------------
G|--------------------|-----------9--7-----7-----------|-----------------------------
D|--7--------7/9-7----|--7/9-7----------9-----9--8--7--|--12--11--10--9--------------
A|--5--------5-7\5----|--5-7\5-------------------------|--10--9---8---7--------------
E|-----0--0-----------|--------------------------------|-----------------0--0--0--0--

Stave 4:

E|-------------------------------------------|---------------------------------------
B|-------------------------------------------|---------------------------------------
G|-------------------------------------------|---------------------------------------
D|--------12--11--------11--10--------10--9--|--------12--11--------11\7--------7/9--
A|--------10--9---------9---8---------8---7--|--------10--9---------9--5--------5-7--
E|--0--0----------0--0----------0--0---------|--0--0----------0--0--------0--0-------

Stave 5:

E|-------------------------------------------------
B|-------------------------------------------------
G|-------------------------------------------------
D|-------------------------------------------------
A|--------5--------2--------5--------4--------7\5--
E|--0--0--3--0--0--0--0--0--3--0--0--2--0--0--5-3--

http://www.guitartabcreator.com
Guitar Tab Creator is intended to store guitar tab created through the tool. It currently does not support in-line text editing. Any text you place in here will be lost. If you need to comment on your tab, please use the "Tab Notes" section located below.