Holy Wars....The Punishment Due

(/) Slide Up  (\) Slide Down  (h) Hammer On  (p) Pull Off  (b) Bend (r) Release (v) Vibrato

Stave 1:

E|-----------------------------------------------------
B|-----------------------------------------------------
G|-----------------------------------------------------
D|--------------------------------------------------2--
A|--5--6--7-----------------------------------------2--
E|-----------5--6--7----7--6--5----5--4--3----5--3--0--

Stave 2:

E|-----------------------------------------------------
B|-----------------------------------------------------
G|-----------------------------------------------------
D|--------------------------------------------------4--
A|--5--6--7-----------------------------------------4--
E|-----------5--6--7----7--6--5----5--4--3----3--2--2--

Stave 3:

E|-------------------------------------------------------------------------------------
B|-------------------------------------------------------------------------------------
G|-------------------------------------------------------------------------------------
D|-------------------------------------------------------------------------------------
A|--5--6--7-----------------------------------7--8--9----------------------------------
E|-----------5--6--7----7--6--5----5--4--3-------------8--9--10----7--6--5----5--4--3--

Stave 4:

E|---------------------------------------------------------------------------------------
B|---------------------------------------------------------------------------------------
G|---------------------------------------------------------------------------------------
D|---------------------------------------------------------------------------------------
A|--5--6--7---------------------------------5h7-----10h7-----------5h7-----5h7-----7--8--
E|-----------5--6--7----7--6--5----5--4--3-------0--------0--0--0-------0-------0--5--6--

Stave 5:

E|---------------------------------------------|-----------|----------------------|-----------
B|---------------------------------------------|-----------|----------------------|-----------
G|---------------------------------------------|-----------|----------------------|-----------
D|-----------------------------------------10--|-----4-----|----------------4--4--|--4--------
A|--5h7-----10h7-----------5h7-----5h7-----8---|-----2--5--|-----9--8--7----2--2--|--2--5--4--
E|-------0--------0--0--0-------0-------0------|--0-----3--|--0--7--6--5----------|-----3--2--

Stave 6:

E|-----------------------------|-----------------------------|-----------------------------
B|-----------------------------|-----------------------------|-----------------------------
G|-----------------------------|-----------------------------|-----------------------------
D|-----------------------------|-----------------------------|-----------------------------
A|-----------------------------|--------6--------5--------4--|--------9--------8--------7--
E|--0--0--7--0--0--6--0--0--5--|--0--0-----0--0-----0--0-----|--0--0-----0--0-----0--0-----

Stave 7:

E|--------------------------------
B|--------------------------------
G|--------------------------------
D|--------------------------------
A|--------14--------13--------12--
E|--0--0------0--0------0--0------

Stave 8:

E|------------------------------------------------
B|------------------------------------------------
G|------------------------------------------------
D|------12--------------12------14--------9-------
A|--10------10------10------12------7--9-----5/7--
E|--------------12--------------------------------

Stave 9:

E|-----------------------------------------
B|-----------------------------------------
G|-----------------------------------------
D|-----------------------------------------
A|--5-----4/5-----4--------4/5--------5\4--
E|--3--0--2-3--0--2--0--0--2-3--0--0--3-2--

Stave 10:

E|--------------------|-----------------
B|--------------------|-----------------
G|--------------------|-----------------
D|--3--2-----2--------|--------2--3--5--
A|--3--2-----2--------|--------2--3--5--
E|--0--0--0--0--0--0--|--0--0--0--0--0--

Stave 11:

E|------------------------------------------------0-----------0-----------
B|---------------------------------------------------0-----------0--------
G|------------------------------------------------------------------------
D|--0h2-----4--------5--------0h2-----4--------------------------------2--
A|-------2--------3--3-------------2--------2--1--------1--0--------0--2--
E|-------------0--------0--0-------------0--3--2--------2--1--------1--0--

http://www.guitartabcreator.com
Guitar Tab Creator is intended to store guitar tab created through the tool. It currently does not support in-line text editing. Any text you place in here will be lost. If you need to comment on your tab, please use the "Tab Notes" section located below.