Another Chance

(/) Slide Up  (\) Slide Down  (h) Hammer On  (p) Pull Off  (b) Bend (r) Release (v) Vibrato

Stave 1:

E|----------------------------------------------------------------------------
B|----------------------------------------------------------------------------
G|--------0-------------0---------------0----------0--------0--------0--------
D|----------------------------------------------0--------0--------0-----------
A|-----2-------------2---------------3-------3--------3--------3--------------
E|--0----------2--2----------2/3--3-------------------------------------3--2--

Stave 2:

E|-----------------------------------------------------------
B|-----------------------------------------------------------
G|-----------------------------------------------------------
D|-------------7----------5-------------7----------5--5h7p5--
A|----------5----------7-------------5----------7------------
E|--2/5--5----------7----------5--5----------7---------------

Stave 3:

E|--------------------------------------
B|--------------------------------------
G|--------------------------5-----------
D|--2--4--5--5/9---2--4--5--5-----------
A|--2--4--5--5-9---2--4--5--3--5--4--2--
E|--0--2--3--3-7b--0--2--3-----3--2--0--

http://www.guitartabcreator.com
Guitar Tab Creator is intended to store guitar tab created through the tool. It currently does not support in-line text editing. Any text you place in here will be lost. If you need to comment on your tab, please use the "Tab Notes" section located below.