Tennessee Waltz

(/) Slide Up  (\) Slide Down  (h) Hammer On  (p) Pull Off  (b) Bend (r) Release (v) Vibrato
E|-------------------------------------------0--0h2--0--------------0-----------------
B|----------------------------------------3-----3----3--3--3-----3-----3--3--------3--
G|-----------------2----------------2--2--------2----1-----4--6--------2-----------4--
D|-----0--2--2--4--------0--2--2h4-------------------------0-----------0-----4-----4--
A|--0--------0--------0--------0---------------------------------------0--------2--2--
E|-----------0-----------------0---------------------------5-----------0--------------



E|--------------------3-----------3---------------------------------------0-----------0h2--
B|-----------------------0--------0------------------------------------------3--------3----
G|--2--0-----------4--------------4----------------2----------------2--2--------------2----
D|--------4-----2-----------2-----2-----0--2--2h4--------0--2--2h4-------------------------
A|-----------0-----------------0--0--0--------0-------0--------0---------------------------
E|--------------------------------------------0----------------0---------------------------



E|--0--------------0-------------------------------------0-----------------
B|--3--3--3-----3-----3----------------------------------3-----------3--3--
G|--1-----4--6--------2--2-------------0-----0-----------2--------0-----2--
D|--------0-----------0-----4-----4/5-----4-----2h4r2r0--0-----2--------4--
A|--------------------0--------0-------------------------0--0-----------0--
E|--------5-----------0----------------------------------0--------------0--



E|--------0--0h2--2h3r2--------------------------------------------------------------------------3--
B|-----3-----3----3------5--5/7--7\5--3--3-----3-----3-----0--2--2h3--3--------3--------------------
G|--2--------2----2------3---------------0-----0--2--2--2--------2-------------4--------------4-----
D|-----------------------5---------------0-----0--4--4-----------4-------4-----4--0--4-----2--------
A|-----------------------4---------------5-----2--0--0-----------0----------2--2--------0-----------
E|---------------------------------------5--2-----0--0-----------0----------------------------------



E|--3-----------3-----
B|--------------0-----
G|-----4--------4-----
D|--------2-----2--0--
A|-----------0--0-----
E|--------------------



E|----------------5----------------5--5--7--14--12--10--7--9--10-------------5--5------------------
B|--------5--5h7-----------5--5h7-----7-----12----------0---------------5h7-----7-----8--7--5h7r---
G|-----7-----7----------6-----6-------6-----14----------7------------7----------7-----6--6--6------
D|--0--------0-------0--------0-------------------------0---------0-------------0-----7--7--7------
A|------------------------------------------------------5--------------------------0---------------
E|------------------------------------------------------5------------------------------------------



E|--------------------------
B|--------3-----------3--3--
G|--------2--------2-----2--
D|--------4-----5--------4--
A|-----0-----0-----------0--
E|--0--------------------0--



E|-----0-----0h2--2h4r2--------0h2--2--0-----2--0-----0--0----------------------------------------
B|--3-----3--3--------------3-------------3--0-----3--3-----2-----0--2--2h3-----------3-----3-----
G|-----------2-----------3-------------------4-----4--2--------2--------2----2--------4-----3-----
D|-------------------------------------------0-----0--0-----------------4-------4-----4-----3-----
A|-------------------------------------------5-----5--0-----------------0----------0--2--0--------
E|-------------------------------------------5-----5--0-----------------0-------------2-----------



E|-------------------
B|-----2-------------
G|-----2----------2--
D|-----2-------2-----
A|--0-----3h4--------
E|-------------------
http://www.guitartabcreator.com
Guitar Tab Creator is intended to store guitar tab created through the tool. It currently does not support in-line text editing. Any text you place in here will be lost. If you need to comment on your tab, please use the "Tab Notes" section located below.