swiit aashikii demo13

(/) Slide Up  (\) Slide Down  (h) Hammer On  (p) Pull Off  (b) Bend (r) Release (v) Vibrato
E|--------------------------------------------------
B|--------------------------------------------------
G|--------------------------------------------------
D|--------------------------------------------------
A|--7-----------7-----------7-----------7-----------
E|-----7--8--8-----7--8--8-----7--8--8-----7--8--8--



E|------------------------------------------------------------------
B|------------------------------------------------------------------
G|------------------------------11------------------------------11--
D|--11--------------11--------------11--------------11--------------
A|------11--12--12------11--12--12------11--12--12------11--12--12--
E|------------------------------------------------------------------



E|--------------------------------------------------------------------------
B|--------------------------------------------------------------------------
G|--------------------------------------------------------------------------
D|--------------------------------------------------------------------------
A|--7--5--------------------------------7--5--------------------------------
E|--------8--8--8--8--8--7--5--5--5--5--------8--8--8--8--8--7--5--5--5--5--



E|----------------------------------------------------------------------------------------
B|----------------------------------------------------------------------------12--12--12--
G|----------------------------------------------------------------------------------------
D|--9--7-------------------------------------9--7------------------9--10--12--12--12--12--
A|--------10--10--10--10--10--9--7--7--7--7--------10--10--10--10-------------------------
E|----------------------------------------------------------------------------------------



E|------------------------------------------------------------
B|------------------------------------------------------------
G|------------------------------------------------------------
D|--9------------------------------7--------------------------
A|-----9--11--------------------------7--9--------------------
E|------------11--12--9--11--7--9-----------5--7--2--4--1--2--



E|--------------------------------------------
B|--------------------------------------------
G|--------------------------------------------
D|--------------------------------------7--7--
A|--------------5--7--5-----5-----------------
E|--5--7--8--7-----------8-----8--7--5--5--5--



E|-----------------------------------------5--5-----------------------------------------5--5--
B|-----------------------------------------5--5-----------------------------------------5--5--
G|-----------------------------------------5--5---------------7--9--7------7------------5--5--
D|---------------7--9--7------7------------------7--9--10--9-----------10-----10--9--7--------
A|--7--9--10--9-----------10-----10--9--7-----------------------------------------------------
E|--------------------------------------------------------------------------------------------



E|------------------------------------------
B|------------------------------------------
G|------------------------------------------
D|--9--7------------------------------------
A|--------10--10--10--10-----0--2--2--2--2--
E|------------------------3-----------------
http://www.guitartabcreator.com
Guitar Tab Creator is intended to store guitar tab created through the tool. It currently does not support in-line text editing. Any text you place in here will be lost. If you need to comment on your tab, please use the "Tab Notes" section located below.