swiit aashikii demo01

(/) Slide Up  (\) Slide Down  (h) Hammer On  (p) Pull Off  (b) Bend (r) Release (v) Vibrato
E|--------------------------------------
B|--------------------------------------
G|--------------------------------------
D|--------------------------------------
A|--------------------------------------
E|--5--2--2--3--4--6--5--2--2--3--4--6--



E|--1--1--2--2--3--
B|--2--2--3--3--4--
G|--3--3--2--2--5--
D|-----------------
A|-----------------
E|-----------------



E|--------------------------------------------------------------------------
B|--12--14--12--14--12--14--12--10------10--12--10--12--10--12--10----------
G|----------------------------------12------------------------------12--11--
D|--------------------------------------------------------------------------
A|--------------------------------------------------------------------------
E|--------------------------------------------------------------------------



E|----------------------------------------12--11--------------
B|--12--10----------10----------------------------11----------
G|----------12--11------12--11--9--9--12--------------12------
D|--------------------------------------------------------13--
A|------------------------------------------------------------
E|------------------------------------------------------------



E|----------------------------------------------------------------------------------------------
B|----------------------------------------------------------------------------------------------
G|--10--9----------12--14--10--9----------12--14--10--9----------12--14--10--9------------------
D|---------10---------------------10---------------------10---------------------10------10--12--
A|-------------12---------------------12---------------------12---------------------------------
E|----------------------------------------------------------------------------------10----------



E|--------------------------------------------------------------------------
B|--------------------------------------------------------------------------
G|--5--4--------7--9--5--4--------7--9--5--4--------7--9--5--4--------------
D|--------5-----------------5-----------------5-----------------5-----5--7--
A|-----------7-----------------7-----------------7--------------------------
E|-----------------------------------------------------------------5--------



E|-----------5--5--5--5--5--12--12--10--
B|--7--8--7--5--5--5--5--5--12--12--10--
G|--5--5--5--5--5--5--5--5--12--12--10--
D|--------------------------------------
A|--------------------------------------
E|--------------------------------------



E|--5--5--5--12--12--12--0--7--8--10--
B|--5--5--5--12--12--12--0--7--8--10--
G|--5--5--5--12--12--12--0--7--8--10--
D|------------------------------------
A|------------------------------------
E|------------------------------------



E|--------------------------------------
B|--------------------------------------
G|--------------------------------------
D|-----------------------0--2--4--5--0--
A|-----------0--2--0--3-----------------
E|--0--2--3-----------------------------
http://www.guitartabcreator.com
Guitar Tab Creator is intended to store guitar tab created through the tool. It currently does not support in-line text editing. Any text you place in here will be lost. If you need to comment on your tab, please use the "Tab Notes" section located below.