Slayussy

(/) Slide Up  (\) Slide Down  (h) Hammer On  (p) Pull Off  (b) Bend (r) Release (v) Vibrato
E|-----------------------------------------------------------------------------------------------
B|-----------------------------------------------------------------------------------------------
G|-----------------------------------------------------------------------------------------------
D|-----------------------------------------------------------------------------------------------
A|--------------8--8--8--8--------------7--------7-----------8--8--8--8--------------7--------7--
E|--0--0--0--0--------------0--0--0--0-----0--0-----0--0--0--------------0--0--0--0-----0--0-----



E|------------------------------------------------------------------------------------
B|------------------------------------------------------------------------------------
G|------------------------------------------------------------------------------------
D|------------------------------------------------------------------------------------
A|-----------13--13--13--12--------------2--------3-----------6--------5--5--5--5--5--
E|--0--0--0------------------0--0--0--0-----0--0-----0--0--0-----0--0-----------------



E|------------------------------------------------------------------------
B|------------------------------------------------------------------------
G|--------------------------5b7r5-----------------------------------------
D|------------------------------------------------------------------------
A|------------------------------------------------------------------------
E|--0--2--0--0--2--0--2--0---------0--2--0--0--2--0--2--0--2--0--2--3--5--



E|---------------------------------------------------------------------------------
B|---------------------------------------------------------------------------------
G|---------------------------------------------------------------------------------
D|---------------------------------------------------------------------------------
A|-----------------------13\10--10\9--9/10-----------------------------------------
E|--2--0--0--2--0--2--0---------------------2--0--0--2--0--2--0--3--0--5--0--3--0--



E|--------------------------------------------------------
B|--------------------------------------------------------
G|--------------------------------------------------------
D|--------------------------------------------------------
A|--------------------------------------------------------
E|--8----8----8----8--8--8--8--5----5----5----5--5--5--5--



E|----------------------------------------------------------------------------------
B|----------------------------------------------------------------------------------
G|-------------------------------------16-----------12--12--12------------5b7r5-----
D|-----------7-----------------16--17---------------------------13------------------
A|--------------8--7----------------------------------------------------------------
E|--0--0--0-----------0--0--0--------------0--0--0------------------0--0------------



E|--------------------------------------------------------------------------------------------
B|--------------------------------------------------------------------------------------------
G|---------------------------------------16-------------------12h13p12\10h12--------15b17r15--
D|-----------7--------------------16h17------17--16-------------------------------------------
A|--------------8--7--5-----------------------------------------------------------------------
E|--0--0--0--------------0--0--0---------------------0--0--0------------------0--0------------
http://www.guitartabcreator.com
Guitar Tab Creator is intended to store guitar tab created through the tool. It currently does not support in-line text editing. Any text you place in here will be lost. If you need to comment on your tab, please use the "Tab Notes" section located below.