Blister Finger

(/) Slide Up  (\) Slide Down  (h) Hammer On  (p) Pull Off  (b) Bend (r) Release (v) Vibrato


E|----------------------------------------------------------------
B|----------------------------------------------------------------
G|----------------------------------------------------------------
D|----------------------------------------------------------------
A|----------------------------------------------------------------
E|-0-0-0-0-0-13-12-0-0-0-0-0-10-12-0-0-0-0-0-10-8-8-8-10-10-10-12-



E|------------------------------------------------------------
B|------------------------------------------------------------
G|------------------------------------------------------------
D|------------------------------------------------------------
A|------------------------------------------------------------
E|-0-0-0-0-0-13-12-0-0-0-0-0-12-10-0-0-0-0-0-10-6-6-6-6-6-6-6-



E|-----------------------------------------------------------
B|-----------------------------------------------------------
G|-----------------------------------------------------------
D|---------------------------------------------------------0-
A|-----------------------------------------------------------
E|-0-0-0-0-0-3-0-0-0-0-0-0-5-3-0-0-0-0-0-3-0-0-0-0-0-0-3h5---



E|-------------------------------------------------------------
B|-------------------------------------------------------------
G|-------------------------------------------------------------
D|---------------------------------------------------3---------
A|-----------------------------------------------3h5---5p3h5---
E|-0-0-0-0-0-3-0-0-0-0-0-0-5-3-0-0-0-0-0-3-0-0-0---------------



E|-------------------------------------------------------------
B|-------------------------------------------------------------
G|-------------------------------------------------------------
D|-------------------------------------------------------------
A|-------------------------------------------------------------
E|-0-0-0-0-0-3-0-0-0-0-0-0-5-3-0-0-0-0-0-3-0-0-0-0-0-0-3h5b6r5-



E|-----------------------------------------------------------
B|-----------------------------------------------------------
G|-----------------------------------------------------------
D|---------------------------------------------------3-------
A|-----------------------------------------------3h5---5p3h5-
E|-0-0-0-0-0-3-0-0-0-0-0-0-5-3-0-0-0-0-0-3-0-0-0-------------



E|----------------------------------------------------------
B|----------------------------------------------------------
G|----------------------------------------------------------
D|----------------------------------------------------------
A|----------------------------------------------------------
E|-0-0-0-0-0-13-12-0-0-0-0-0-12-10-0-0-0-0-0-10-8-8-8-6-6-6-



E|---------------------------------------------------------------
B|---------------------------------------------------------------
G|---------------------------------------------------------------
D|---------------------------------------------------------------
A|---------------------------------------------------------------
E|-3-3-3-3-3-3-3-3-3-3-3-3-3-3-3-3-5-5-5-5-5-5-5-5-5-5-5-5-6-6-6-



E|-----------------------------------------------------------------
B|-----------------------------------------------------------------
G|-----------------------------------------------------------------
D|-----------------------------------------------------------------
A|-----------------------------------------------------------------
E|-3-3-3-3-3-3-3-3-3-3-3-3-3-3-3-3-5-5-5-5-5-5-5-5-6-6-6-6-6-6-6-6-



E|---------------------------
B|---------------------------
G|---------------------------
D|---------------------------
A|-----3-5-------------------
E|-0-0-----0-5-6-0-3-3-3-3-5-



E|---------------------------------------------------------------------------------
B|---------------------------------------------------------------------------------
G|---------------------------------------------------------------------------------
D|---------------------------------------------------------------------------------
A|---------------------------------------------------------------------------------
E|-0-0-10-12-0-5-6-0-3-3-3-3-5-0-0-10-12-0-5-6-0-3-3-3-3-5-0-0-10-12-0-5-6-6-6-6---



E|--------------------------------------------------------
B|--------------------------------------------------------
G|--------------------------------------------------------
D|--------------------------------------------------------
A|--------------------------------------------------------
E|-12-14-------12-14--------12-14-10-8-8-8-10-------12-14-
http://www.guitartabcreator.com
Guitar Tab Creator is intended to store guitar tab created through the tool. It currently does not support in-line text editing. Any text you place in here will be lost. If you need to comment on your tab, please use the "Tab Notes" section located below.