nooo

(/) Slide Up  (\) Slide Down  (h) Hammer On  (p) Pull Off  (b) Bend (r) Release (v) Vibrato

CAPO 5th Fret

Strumming: ↓/↓↓/↓↓↓ or ↓/↓↑/↓↑↓

C Am E
E|-------------------------------------------------------------------------
B|-1-1-1-1-1-1-1-1-1-1-1-1-1-1-1-1-1-1-1-1-1-1-1-1-------------------------
G|-------------------------2-2-2-2-2-2-2-2-2-2-2-2-1-1-1-1-1-1-1-1-1-1-1-1-
D|-2-2-2-2-2-2-2-2-2-2-2-2-2-2-2-2-2-2-2-2-2-2-2-2-2-2-2-2-2-2-2-2-2-2-2-2-
A|-3-3-3-3-3-3-3-3-3-3-3-3-------------------------2-2-2-2-2-2-2-2-2-2-2-2-
E|-------------------------------------------------------------------------

E7sus4 A7
E|-------------------------
B|-------------2-2-2-2-2-2-
G|-2-2-2-2-2-2-------------
D|-------------2-2-2-2-2-2-
A|-2-2-2-2-2-2-------------
E|-------------------------

Whole thing x1,000,000
Guitar Tab Creator is intended to store guitar tab created through the tool. It currently does not support in-line text editing. Any text you place in here will be lost. If you need to comment on your tab, please use the "Tab Notes" section located below.