my fragile DADF#AD

(/) Slide Up  (\) Slide Down  (h) Hammer On  (p) Pull Off  (b) Bend (r) Release (v) Vibrato

E|-----2--0--2--|--2-----2--0--|--2--3--0-----0--|--0--0--0-----0-----|--0h2--2--0--2------|--
B|--0-----------|--3--0--------|--3--------3-----|--3--------3-----3--|--3-----------------|--
G|--------------|--5-----------|--5--------------|--2-----------------|--1-----------------|--
D|--------------|--2-----------|-----------------|--------------------|--2-----------------|--
A|--------------|--0-----------|-----------------|--------------------|--0-----------------|--
E|--------------|--------------|--0--------------|--2-----------------|--------------------|--



E|--0-----0-------|----------------|-----
B|--0--3-------3--|--3--2--3----2--|-----
G|--3-------------|--2-------------|-----
D|--3-------------|--0-------------|-----
A|----------------|----------------|-----
E|--3-------------|--2-------------|-----
http://www.guitartabcreator.com
Guitar Tab Creator is intended to store guitar tab created through the tool. It currently does not support in-line text editing. Any text you place in here will be lost. If you need to comment on your tab, please use the "Tab Notes" section located below.