Bambenella DADEAD

(/) Slide Up  (\) Slide Down  (h) Hammer On  (p) Pull Off  (b) Bend (r) Release (v) Vibrato

(W|WW) Whole (H|HH) Half (Q|QQ) Quarter (E|EE) 8th (S|SS) 16th (T|TT) 32nd (X|XX) 64th


E|-------0---2---------|-------0---------------|-------0---2---------|-
B|-----0-----------0---|-----0-----4-------0---|-----0-----------0---|-
G|-0h2-------3---------|-0h2-------5---5-------|-0h2-------3---------|-
D|-----0---------0-----|-----0-----------0-----|-----0---------0-----|-
A|---------0---------0-|-0-------0-----------0-|---------0---------0-|-
E|-0-----------0-------|-------------0---------|-0-----------0-------|-


t: QQ Q none none nonenone none none
E|-------0-----------
B|-----0---------0-0-
G|-0h2-------2/3-----
D|-----0-------------
A|---------0---------
E|-0-----------0-----
http://www.guitartabcreator.com
Guitar Tab Creator is intended to store guitar tab created through the tool. It currently does not support in-line text editing. Any text you place in here will be lost. If you need to comment on your tab, please use the "Tab Notes" section located below.