Hot Like Fire

(/) Slide Up  (\) Slide Down  (h) Hammer On  (p) Pull Off  (b) Bend (r) Release (v) Vibrato


E|----------------------------------------------------------
B|------------------11--11------------------11--11--12--11--
G|--11--11--13--11----------11--11--13--11------------------
D|----------------------------------------------------------
A|----------------------------------------------------------
E|----------------------------------------------------------



E|----------------------------------------------------------
B|--11--14--11--12--11--12--11--11--14--11--12--11--12--11--
G|----------------------------------------------------------
D|----------------------------------------------------------
A|----------------------------------------------------------
E|----------------------------------------------------------



E|----------------------------------------------------------------------------------------------
B|------------------11--11------------------11--11--12--11--12--11--12--11--12--9--9--9--9------
G|--11--11--13--11----------11--11--13--11--------------------------------------------------11--
D|----------------------------------------------------------------------------------------------
A|----------------------------------------------------------------------------------------------
E|----------------------------------------------------------------------------------------------
http://www.guitartabcreator.com
Guitar Tab Creator is intended to store guitar tab created through the tool. It currently does not support in-line text editing. Any text you place in here will be lost. If you need to comment on your tab, please use the "Tab Notes" section located below.