test tab

(/) Slide Up  (\) Slide Down  (h) Hammer On  (p) Pull Off  (b) Bend (r) Release (v) Vibrato
E|--------------1-------------------------------------------------------------------
B|--2----------------------------------------------------8--------7-----------------
G|--------5--------6----------------------------------5-----8--7-----6--5--6--6--5--
D|--------------------15--16--14--------------16--16--------------------------------
A|-----3-----1----------------------------------------------------------------------
E|--------------------------------15--15--15----------------------------------------



E|-----------------------------------------2--
B|--------------------------17--18------------
G|-----------2----------16----------18--------
D|--------3-----------------------------0-----
A|-----3--------15----------------------------
E|--2---------------11------------------------
http://www.guitartabcreator.com
Guitar Tab Creator is intended to store guitar tab created through the tool. It currently does not support in-line text editing. Any text you place in here will be lost. If you need to comment on your tab, please use the "Tab Notes" section located below.