sgp

(/) Slide Up  (\) Slide Down  (h) Hammer On  (p) Pull Off  (b) Bend (r) Release (v) Vibrato


E|-------3--5-------------------1---------------------3----|----------------------------------------|--
B|--5----------5----------------1----5----------------3----|--5----5--5----7----7--7--8--7--5----5--|--
G|--4----------5---------5h7----2----5---------5h7----4----|--5----5--5----7----7--7--8--7--5----5--|--
D|--5----------5----5h7---------3----5----5h7---------5----|--5----5--5----7----7--7--8--7--5----5--|--
A|---------------------------------------------------------|----------------------------------------|--
E|---------------------------------------------------------|----------------------------------------|--



E|-------1----1--1-----------------------1----1--1--|----------------------------------------------
B|--5----1----1--1----3----3--3--4--3----1----1--1--|------------5----5--5--7----7--7--8--7--5-----
G|--5----2----2--2----3----3--3--4--3----2----2--2--|-------5h7--5----5--5--7----7--7--8--7--5-----
D|--5----3----3--3----3----3--3--4--3----3----3--3--|--5h7-------5----5--5--7----7--7--8--7--5-----
A|--------------------------------------------------|----------------------------------------------
E|--------------------------------------------------|----------------------------------------------



E|--------3--|--
B|--5--5--3--|--
G|--5--5--4--|--
D|--5--5--5--|--
A|-----------|--
E|-----------|--



E|-------------------|--
B|--------------5----|--
G|-------5h7----5----|--
D|--5h7---------5----|--
A|-------------------|--
E|-------------------|--
http://www.guitartabcreator.com
Guitar Tab Creator is intended to store guitar tab created through the tool. It currently does not support in-line text editing. Any text you place in here will be lost. If you need to comment on your tab, please use the "Tab Notes" section located below.