fgp2

(/) Slide Up  (\) Slide Down  (h) Hammer On  (p) Pull Off  (b) Bend (r) Release (v) Vibrato

E|--------------------------------------3--
B|--5-------5----5-------5----5---------3--
G|--5-------5----5-------5----5---------4--
D|--5--5h7--5----5--5h7--5----5--5h7----5--
A|-----------------------------------------
E|-----------------------------------------



E|--
B|--
G|--
D|--
A|--
E|--



E|--5-----3----5-----3----7--5--3--3-----
B|--6--5--3----6--5--3----8--6--5--3--5--
G|--5--5--4----5--5--4----7--5--4--4--5--
D|--7--5--5----7--5--5----9--7--5--5--5--
A|--5----------5----------7--5--3--3-----
E|--5----------5----------7--5--3--3-----
http://www.guitartabcreator.com
Guitar Tab Creator is intended to store guitar tab created through the tool. It currently does not support in-line text editing. Any text you place in here will be lost. If you need to comment on your tab, please use the "Tab Notes" section located below.