Random Tune

(/) Slide Up  (\) Slide Down  (h) Hammer On  (p) Pull Off  (b) Bend (r) Release (v) Vibrato


E|----------------------------------------------------------------------------
B|--------0--------0--------0--------0----------3-----------3-----------3-----
G|-----0--------0--------0--------0----------0-----0-----0-----0-----0-----0--
D|--2--------1--------0-------------------------------------------------------
A|-----------------------------4----------3-----------2-----------0-----------
E|----------------------------------------------------------------------------



E|--------------------------------------------------------------------------
B|--------3-----------3-----------3-----------0--------0--------0--------0--
G|-----0-----0-----0-----0-----0-----0-----0--------0--------0--------0-----
D|--------------------------------------------------------------------------
A|--3-----------2-----------0-----------3--------4--------5--------6--------
E|--------------------------------------------------------------------------



E|--------------------------------------
B|--------0--------0--------0--------0--
G|-----0--------0--------0--------0-----
D|--------------------------------------
A|--3--------4--------5--------6--------
E|--------------------------------------
http://www.guitartabcreator.com
Guitar Tab Creator is intended to store guitar tab created through the tool. It currently does not support in-line text editing. Any text you place in here will be lost. If you need to comment on your tab, please use the "Tab Notes" section located below.