Funny You Should Ask

(/) Slide Up  (\) Slide Down  (h) Hammer On  (p) Pull Off  (b) Bend (r) Release (v) Vibrato


E|----------------------------------------------------------
B|--13--12--10--8--10--8--5--6--8--13--12--10--8--10--8--8--
G|----------------------------------------------------------
D|----------------------------------------------------------
A|----------------------------------------------------------
E|----------------------------------------------------------



E|----------------------------------------------------
B|--13--12--10--8--10--8--5--6--8--13--12--10--12b13--
G|----------------------------------------------------
D|----------------------------------------------------
A|----------------------------------------------------
E|----------------------------------------------------



E|--------------
B|--------------
G|--------------
D|--5-----------
A|--3--7--2--3--
E|-----5--0--1--
http://www.guitartabcreator.com
Guitar Tab Creator is intended to store guitar tab created through the tool. It currently does not support in-line text editing. Any text you place in here will be lost. If you need to comment on your tab, please use the "Tab Notes" section located below.