lo

(/) Slide Up  (\) Slide Down  (h) Hammer On  (p) Pull Off  (b) Bend (r) Release (v) Vibrato


E|-----------------------|-----------------------|----------------------------------------------------
B|--18--17--15------15v--|-----------------------|----------------------------------------------------
G|--------------18-------|--17--15--14------14v--|----------------------------------------------------
D|-----------------------|--------------17-------|--17--16--14------14-------------------------12-----
A|-----------------------|-----------------------|--------------17------17--16--14\12--14--15---------
E|-----------------------|-----------------------|----------------------------------------------------



E|-----------------------|-----------------------|-----------------------|--------------------------
B|-----------------------|--18--17--15------15v--|-----------------------|--------------------------
G|-----------------------|--------------18-------|--17--15--14------14v--|--------------------------
D|--14v------------------|-----------------------|--------------17-------|--17--15--14------14--15--
A|-----------------------|-----------------------|-----------------------|--------------17----------
E|-----------------------|-----------------------|-----------------------|--------------------------



E|-----------------------------|--
B|------------------14----15v--|--
G|------14--15-----------------|--
D|--17----------17-------------|--
A|-----------------------------|--
E|-----------------------------|--
http://www.guitartabcreator.com
Guitar Tab Creator is intended to store guitar tab created through the tool. It currently does not support in-line text editing. Any text you place in here will be lost. If you need to comment on your tab, please use the "Tab Notes" section located below.