Jokin sävellys

(/) Slide Up  (\) Slide Down  (h) Hammer On  (p) Pull Off  (b) Bend (r) Release (v) Vibrato


E|--------------------------------------------------------------------------------------------
B|--------------------------------------------------------------------------------------------
G|--------------------------------------------------------------------------------------------
D|---2-3v---2-3-5v---2-3-5b6-5b6-5b6-2--------5-3-2---5-3-2-5-3-2-5-3-2-5-3-2-------------2---
A|-3------3--------3-------------------3/5-3----------------------------------5-3-5-3-2-3-3---
E|--------------------------------------------------------------------------------------------



E|--------------------------------------------------------------------------------------------------
B|--------------------------------------------------------------------------------------------------
G|--------------------------------------------------------------9-8----8-9-8----8----8--------------
D|-2-5-5-2------2-3-5---2-3-5---4-5-7---6-7-9---8-9-11---8-9-11-----11-------11--------9-8----8-9---
A|-3-3-3-3----3-------3-------5-------7-------9--------9-----------------------------------11-------
E|--------------------------------------------------------------------------------------------------



E|----------------------------------------------------------------------------
B|----------------------------------------------------------------------------
G|-8------------8-----------8-----------8------------8------------------------
D|---9-8----8-9---9-8---8-9---9-8---8-9---9-8----8-9---9-8----8-9-------------
A|-------11-----------9-----------9-----------11-----------11-----11----------
E|----------------------------------------------------------------------------
http://www.guitartabcreator.com
Guitar Tab Creator is intended to store guitar tab created through the tool. It currently does not support in-line text editing. Any text you place in here will be lost. If you need to comment on your tab, please use the "Tab Notes" section located below.