Awesome Song

(/) Slide Up  (\) Slide Down  (h) Hammer On  (p) Pull Off  (b) Bend (r) Release (v) Vibrato


E|----------------------------------------------------------------------------------------------
B|----------------------------------------------------------------------------------------------
G|--8--8--10--11--10--8---------8--10--11--10------8--8--10--11--10------11--11--13--13--11-----
D|-----------------------11--8-----------------11--------------------11-------------------------
A|----------------------------------------------------------------------------------------------
E|----------------------------------------------------------------------------------------------



E|------------------------------------------------------------------------
B|------------------------------------------------------------------------
G|--10--10--11--11------8--11--10--10--11--11------8--11--10--10--11--11--
D|------------------11-------------------------11-------------------------
A|------------------------------------------------------------------------
E|------------------------------------------------------------------------
http://www.guitartabcreator.com
Guitar Tab Creator is intended to store guitar tab created through the tool. It currently does not support in-line text editing. Any text you place in here will be lost. If you need to comment on your tab, please use the "Tab Notes" section located below.