Halloween

(/) Slide Up  (\) Slide Down  (h) Hammer On  (p) Pull Off  (b) Bend (r) Release (v) Vibrato

E|--------------------------------------
B|--------------------------------------
G|--------------------------------------
D|--------------------------------------
A|--0--0--0--0-----0--1--0--1--0--------
E|--------------3-----------------3--0--



E|--------------------------------------------------------------
B|--------------------------------------------------------------
G|--------------------------------------------------------------
D|--------------------------0--2-----------------------------0--
A|--0--0--0--0-----0--3--3--------------------------1--1--3-----
E|--------------3-----------------3--3--3--3--1--3--------------



E|--------------
B|--------------
G|--------------
D|--------------
A|--0--3--------
E|--------3--1--



E|-----------------------------------------------
B|-----------------------------------------------
G|-----------------------------------------------
D|-----------------------------------0--0--2--2--
A|--0-----0--0-----0--3--3--3--3--3--------------
E|-----3--------3--------------------------------
http://www.guitartabcreator.com

line 1: main riff            

line 1: main riff                

line 2: verse riff

line 3: play each note 16 times

line 4: chorus riff ie " halloween, halloween......." Note that I couldn't put the timing in, you know how the song goes anyway

Guitar Tab Creator is intended to store guitar tab created through the tool. It currently does not support in-line text editing. Any text you place in here will be lost. If you need to comment on your tab, please use the "Tab Notes" section located below.