first

(/) Slide Up  (\) Slide Down  (h) Hammer On  (p) Pull Off  (b) Bend (r) Release (v) Vibrato

E|-------------------------------------------
B|-------------------------------------------
G|----------------------0--------------------
D|-----2-----0h2-----2-----2p0-----0h2-------
A|--3-----3-------3-------------3-------3p2--
E|-------------------------------------------



E|----------------------
B|----------------------
G|----------------------
D|-----2-----0h2--------
A|--0-----0-------------
E|----------------------
http://www.guitartabcreator.com
Guitar Tab Creator is intended to store guitar tab created through the tool. It currently does not support in-line text editing. Any text you place in here will be lost. If you need to comment on your tab, please use the "Tab Notes" section located below.